Gitar Tabları

Aşağa gitmek

Gitar Tabları

Mesaj  Okan Malkoç Bir Ptsi Ocak 17, 2011 10:25 pm

Arkadaşlar

tüm yerli ve yabancı gitar tablarını bu bölümde paylaşabilir,yeni tablar eklyebilir ve yerli yabancı tüm sarkıların gitar tablarını bu bölümden istekte bulunabilrsiniz...

Destekleriniz İçin Şimdiden Teşekkürler. Hep beraber kaliteli bir arşiv oluşturalım. Şimdi herkes en sevdiği en güzel çalıdığı veya çalmayıpta hoşlandığı şarkının tablarını eklesin.



Ah
İNTRO

E:---------------------------------------------------------
A:-3/5-----------6-5-6-5-3-5-------------------------------
D:----7----------------------------------------------------
G:-----7-----5-3-------------------------------------------
B:------6-4-3----------------------------------------------
E:---------------------------------------------------------

Sözler

E:--4/6------4-4------------------
A:----8------6-6---3-3-6-5-6-5-3-5
D:----8------6-6------------------
G:--------------------------------
B:--------------------------------
E:--------------------------------

Nakarat

E:-------4-4-------6-6---4-4--------------------------
A:--5-5--6-6--3----8-8---6-6--3-----------------------
D:--7-7--6-6--5----8-8---6-6--5-----------------------
G:--7-7-------5---------------5-----------------------
B:----------------------------------------------------
E:----------------------------------------------------


avatar
Okan Malkoç
Admin

Mesaj Sayısı : 37
Kayıt tarihi : 17/01/11

Kullanıcı profilini gör http://gitardunyasi.forumdizini.com

Sayfa başına dön Aşağa gitmek

Sayfa başına dön


 
Bu forumun müsaadesi var:
Bu forumdaki mesajlara cevap veremezsiniz